ISO-10303-21;
HEADER;
/* Generated by software containing ST-Developer
 * from STEP Tools, Inc. (www.steptools.com) 
 */
/* OPTION: using custom renumber hook */

FILE_DESCRIPTION(
/* description */ ('STEP AP242',
'CAx-IF Rec.Pracs.---Representation and Presentation of Product Manufa
cturing Information (PMI)---4.0---2014-10-13',
'CAx-IF Rec.Pracs.---3D Tessellated Geometry---0.4---2014-09-14','2;1'),

/* implementation_level */ '2;1');

FILE_NAME(
/* name */ '676467564adeaf7533213ef7',
/* time_stamp */ '2024-12-19T18:35:03Z',
/* author */ (''),
/* organization */ (''),
/* preprocessor_version */ 'ST-DEVELOPER v20',
/* originating_system */ 'ONSHAPE BY PTC INC, 1.191',
/* authorisation */ '  ');

FILE_SCHEMA (('AP242_MANAGED_MODEL_BASED_3D_ENGINEERING_MIM_LF { 1 0 10303 442 1 1 4 }'));
ENDSEC;

DATA;
#10=SHAPE_REPRESENTATION_RELATIONSHIP('','',#317,#11);
#11=ADVANCED_BREP_SHAPE_REPRESENTATION('',(#315),#539);
#12=LINE('',#471,#28);
#13=LINE('',#474,#29);
#14=LINE('',#476,#30);
#15=LINE('',#478,#31);
#16=LINE('',#480,#32);
#17=LINE('',#483,#33);
#18=LINE('',#485,#34);
#19=LINE('',#487,#35);
#20=LINE('',#489,#36);
#21=LINE('',#492,#37);
#22=LINE('',#494,#38);
#23=LINE('',#496,#39);
#24=LINE('',#498,#40);
#25=LINE('',#501,#41);
#26=LINE('',#503,#42);
#27=LINE('',#505,#43);
#28=VECTOR('',#380,1.);
#29=VECTOR('',#381,1.);
#30=VECTOR('',#382,1.);
#31=VECTOR('',#383,1.);
#32=VECTOR('',#386,1.);
#33=VECTOR('',#387,1.);
#34=VECTOR('',#388,1.);
#35=VECTOR('',#389,1.);
#36=VECTOR('',#392,1.);
#37=VECTOR('',#393,1.);
#38=VECTOR('',#394,1.);
#39=VECTOR('',#395,1.);
#40=VECTOR('',#398,1.);
#41=VECTOR('',#399,1.);
#42=VECTOR('',#400,1.);
#43=VECTOR('',#401,1.);
#44=PLANE('',#328);
#45=PLANE('',#329);
#46=PLANE('',#330);
#47=PLANE('',#331);
#48=PLANE('',#332);
#49=PLANE('',#337);
#50=PLANE('',#351);
#51=PLANE('',#354);
#52=PLANE('',#357);
#53=ORIENTED_EDGE('',*,*,#125,.T.);
#54=ORIENTED_EDGE('',*,*,#126,.T.);
#55=ORIENTED_EDGE('',*,*,#127,.T.);
#56=ORIENTED_EDGE('',*,*,#128,.T.);
#57=ORIENTED_EDGE('',*,*,#129,.T.);
#58=ORIENTED_EDGE('',*,*,#130,.T.);
#59=ORIENTED_EDGE('',*,*,#131,.F.);
#60=ORIENTED_EDGE('',*,*,#132,.T.);
#61=ORIENTED_EDGE('',*,*,#133,.T.);
#62=ORIENTED_EDGE('',*,*,#134,.T.);
#63=ORIENTED_EDGE('',*,*,#135,.F.);
#64=ORIENTED_EDGE('',*,*,#136,.T.);
#65=ORIENTED_EDGE('',*,*,#137,.T.);
#66=ORIENTED_EDGE('',*,*,#138,.T.);
#67=ORIENTED_EDGE('',*,*,#139,.F.);
#68=ORIENTED_EDGE('',*,*,#140,.T.);
#69=ORIENTED_EDGE('',*,*,#141,.T.);
#70=ORIENTED_EDGE('',*,*,#142,.T.);
#71=ORIENTED_EDGE('',*,*,#143,.T.);
#72=ORIENTED_EDGE('',*,*,#144,.T.);
#73=ORIENTED_EDGE('',*,*,#145,.F.);
#74=ORIENTED_EDGE('',*,*,#146,.T.);
#75=ORIENTED_EDGE('',*,*,#129,.F.);
#76=ORIENTED_EDGE('',*,*,#127,.F.);
#77=ORIENTED_EDGE('',*,*,#125,.F.);
#78=ORIENTED_EDGE('',*,*,#133,.F.);
#79=ORIENTED_EDGE('',*,*,#147,.T.);
#80=ORIENTED_EDGE('',*,*,#135,.T.);
#81=ORIENTED_EDGE('',*,*,#148,.T.);
#82=ORIENTED_EDGE('',*,*,#139,.T.);
#83=ORIENTED_EDGE('',*,*,#149,.T.);
#84=ORIENTED_EDGE('',*,*,#143,.F.);
#85=ORIENTED_EDGE('',*,*,#150,.T.);
#86=ORIENTED_EDGE('',*,*,#151,.F.);
#87=ORIENTED_EDGE('',*,*,#152,.F.);
#88=ORIENTED_EDGE('',*,*,#153,.F.);
#89=ORIENTED_EDGE('',*,*,#137,.F.);
#90=ORIENTED_EDGE('',*,*,#154,.T.);
#91=ORIENTED_EDGE('',*,*,#131,.T.);
#92=ORIENTED_EDGE('',*,*,#155,.T.);
#93=ORIENTED_EDGE('',*,*,#145,.T.);
#94=ORIENTED_EDGE('',*,*,#156,.T.);
#95=ORIENTED_EDGE('',*,*,#141,.F.);
#96=ORIENTED_EDGE('',*,*,#157,.T.);
#97=ORIENTED_EDGE('',*,*,#147,.F.);
#98=ORIENTED_EDGE('',*,*,#132,.F.);
#99=ORIENTED_EDGE('',*,*,#154,.F.);
#100=ORIENTED_EDGE('',*,*,#136,.F.);
#101=ORIENTED_EDGE('',*,*,#148,.F.);
#102=ORIENTED_EDGE('',*,*,#138,.F.);
#103=ORIENTED_EDGE('',*,*,#157,.F.);
#104=ORIENTED_EDGE('',*,*,#140,.F.);
#105=ORIENTED_EDGE('',*,*,#149,.F.);
#106=ORIENTED_EDGE('',*,*,#142,.F.);
#107=ORIENTED_EDGE('',*,*,#156,.F.);
#108=ORIENTED_EDGE('',*,*,#144,.F.);
#109=ORIENTED_EDGE('',*,*,#150,.F.);
#110=ORIENTED_EDGE('',*,*,#146,.F.);
#111=ORIENTED_EDGE('',*,*,#155,.F.);
#112=ORIENTED_EDGE('',*,*,#134,.F.);
#113=ORIENTED_EDGE('',*,*,#158,.F.);
#114=ORIENTED_EDGE('',*,*,#153,.T.);
#115=ORIENTED_EDGE('',*,*,#126,.F.);
#116=ORIENTED_EDGE('',*,*,#158,.T.);
#117=ORIENTED_EDGE('',*,*,#159,.F.);
#118=ORIENTED_EDGE('',*,*,#152,.T.);
#119=ORIENTED_EDGE('',*,*,#128,.F.);
#120=ORIENTED_EDGE('',*,*,#159,.T.);
#121=ORIENTED_EDGE('',*,*,#160,.F.);
#122=ORIENTED_EDGE('',*,*,#151,.T.);
#123=ORIENTED_EDGE('',*,*,#130,.F.);
#124=ORIENTED_EDGE('',*,*,#160,.T.);
#125=EDGE_CURVE('',#161,#161,#189,.T.);
#126=EDGE_CURVE('',#162,#162,#190,.T.);
#127=EDGE_CURVE('',#163,#163,#191,.T.);
#128=EDGE_CURVE('',#164,#164,#192,.T.);
#129=EDGE_CURVE('',#165,#165,#193,.T.);
#130=EDGE_CURVE('',#166,#166,#194,.T.);
#131=EDGE_CURVE('',#167,#168,#12,.T.);
#132=EDGE_CURVE('',#167,#169,#13,.F.);
#133=EDGE_CURVE('',#169,#170,#14,.T.);
#134=EDGE_CURVE('',#170,#168,#15,.T.);
#135=EDGE_CURVE('',#171,#172,#16,.T.);
#136=EDGE_CURVE('',#171,#173,#17,.T.);
#137=EDGE_CURVE('',#173,#174,#18,.T.);
#138=EDGE_CURVE('',#174,#172,#19,.F.);
#139=EDGE_CURVE('',#175,#176,#20,.T.);
#140=EDGE_CURVE('',#175,#177,#21,.T.);
#141=EDGE_CURVE('',#177,#178,#22,.T.);
#142=EDGE_CURVE('',#178,#176,#23,.F.);
#143=EDGE_CURVE('',#179,#180,#24,.T.);
#144=EDGE_CURVE('',#180,#181,#25,.T.);
#145=EDGE_CURVE('',#182,#181,#26,.T.);
#146=EDGE_CURVE('',#182,#179,#27,.F.);
#147=EDGE_CURVE('',#169,#171,#195,.T.);
#148=EDGE_CURVE('',#172,#175,#196,.T.);
#149=EDGE_CURVE('',#176,#180,#197,.T.);
#150=EDGE_CURVE('',#179,#170,#198,.T.);
#151=EDGE_CURVE('',#183,#183,#199,.T.);
#152=EDGE_CURVE('',#184,#184,#200,.T.);
#153=EDGE_CURVE('',#185,#185,#201,.T.);
#154=EDGE_CURVE('',#173,#167,#202,.F.);
#155=EDGE_CURVE('',#168,#182,#203,.F.);
#156=EDGE_CURVE('',#181,#178,#204,.F.);
#157=EDGE_CURVE('',#177,#174,#205,.F.);
#158=EDGE_CURVE('',#186,#186,#206,.T.);
#159=EDGE_CURVE('',#187,#187,#207,.T.);
#160=EDGE_CURVE('',#188,#188,#208,.T.);
#161=VERTEX_POINT('',#457);
#162=VERTEX_POINT('',#459);
#163=VERTEX_POINT('',#462);
#164=VERTEX_POINT('',#464);
#165=VERTEX_POINT('',#467);
#166=VERTEX_POINT('',#469);
#167=VERTEX_POINT('',#472);
#168=VERTEX_POINT('',#473);
#169=VERTEX_POINT('',#475);
#170=VERTEX_POINT('',#477);
#171=VERTEX_POINT('',#481);
#172=VERTEX_POINT('',#482);
#173=VERTEX_POINT('',#484);
#174=VERTEX_POINT('',#486);
#175=VERTEX_POINT('',#490);
#176=VERTEX_POINT('',#491);
#177=VERTEX_POINT('',#493);
#178=VERTEX_POINT('',#495);
#179=VERTEX_POINT('',#499);
#180=VERTEX_POINT('',#500);
#181=VERTEX_POINT('',#502);
#182=VERTEX_POINT('',#504);
#183=VERTEX_POINT('',#513);
#184=VERTEX_POINT('',#515);
#185=VERTEX_POINT('',#517);
#186=VERTEX_POINT('',#528);
#187=VERTEX_POINT('',#532);
#188=VERTEX_POINT('',#536);
#189=CIRCLE('',#320,0.00115);
#190=CIRCLE('',#321,0.00115);
#191=CIRCLE('',#323,0.00115);
#192=CIRCLE('',#324,0.00115);
#193=CIRCLE('',#326,0.00115);
#194=CIRCLE('',#327,0.00115);
#195=CIRCLE('',#333,0.003);
#196=CIRCLE('',#334,0.003);
#197=CIRCLE('',#335,0.003);
#198=CIRCLE('',#336,0.003);
#199=CIRCLE('',#338,0.004);
#200=CIRCLE('',#339,0.004);
#201=CIRCLE('',#340,0.004);
#202=CIRCLE('',#341,0.003);
#203=CIRCLE('',#342,0.003);
#204=CIRCLE('',#343,0.003);
#205=CIRCLE('',#344,0.003);
#206=CIRCLE('',#350,0.004);
#207=CIRCLE('',#353,0.004);
#208=CIRCLE('',#356,0.004);
#209=EDGE_LOOP('',(#53));
#210=EDGE_LOOP('',(#54));
#211=EDGE_LOOP('',(#55));
#212=EDGE_LOOP('',(#56));
#213=EDGE_LOOP('',(#57));
#214=EDGE_LOOP('',(#58));
#215=EDGE_LOOP('',(#59,#60,#61,#62));
#216=EDGE_LOOP('',(#63,#64,#65,#66));
#217=EDGE_LOOP('',(#67,#68,#69,#70));
#218=EDGE_LOOP('',(#71,#72,#73,#74));
#219=EDGE_LOOP('',(#75));
#220=EDGE_LOOP('',(#76));
#221=EDGE_LOOP('',(#77));
#222=EDGE_LOOP('',(#78,#79,#80,#81,#82,#83,#84,#85));
#223=EDGE_LOOP('',(#86));
#224=EDGE_LOOP('',(#87));
#225=EDGE_LOOP('',(#88));
#226=EDGE_LOOP('',(#89,#90,#91,#92,#93,#94,#95,#96));
#227=EDGE_LOOP('',(#97,#98,#99,#100));
#228=EDGE_LOOP('',(#101,#102,#103,#104));
#229=EDGE_LOOP('',(#105,#106,#107,#108));
#230=EDGE_LOOP('',(#109,#110,#111,#112));
#231=EDGE_LOOP('',(#113));
#232=EDGE_LOOP('',(#114));
#233=EDGE_LOOP('',(#115));
#234=EDGE_LOOP('',(#116));
#235=EDGE_LOOP('',(#117));
#236=EDGE_LOOP('',(#118));
#237=EDGE_LOOP('',(#119));
#238=EDGE_LOOP('',(#120));
#239=EDGE_LOOP('',(#121));
#240=EDGE_LOOP('',(#122));
#241=EDGE_LOOP('',(#123));
#242=EDGE_LOOP('',(#124));
#243=FACE_BOUND('',#209,.T.);
#244=FACE_BOUND('',#210,.T.);
#245=FACE_BOUND('',#211,.T.);
#246=FACE_BOUND('',#212,.T.);
#247=FACE_BOUND('',#213,.T.);
#248=FACE_BOUND('',#214,.T.);
#249=FACE_BOUND('',#215,.T.);
#250=FACE_BOUND('',#216,.T.);
#251=FACE_BOUND('',#217,.T.);
#252=FACE_BOUND('',#218,.T.);
#253=FACE_BOUND('',#219,.T.);
#254=FACE_BOUND('',#220,.T.);
#255=FACE_BOUND('',#221,.T.);
#256=FACE_BOUND('',#222,.T.);
#257=FACE_BOUND('',#223,.T.);
#258=FACE_BOUND('',#224,.T.);
#259=FACE_BOUND('',#225,.T.);
#260=FACE_BOUND('',#226,.T.);
#261=FACE_BOUND('',#227,.T.);
#262=FACE_BOUND('',#228,.T.);
#263=FACE_BOUND('',#229,.T.);
#264=FACE_BOUND('',#230,.T.);
#265=FACE_BOUND('',#231,.T.);
#266=FACE_BOUND('',#232,.T.);
#267=FACE_BOUND('',#233,.T.);
#268=FACE_BOUND('',#234,.T.);
#269=FACE_BOUND('',#235,.T.);
#270=FACE_BOUND('',#236,.T.);
#271=FACE_BOUND('',#237,.T.);
#272=FACE_BOUND('',#238,.T.);
#273=FACE_BOUND('',#239,.T.);
#274=FACE_BOUND('',#240,.T.);
#275=FACE_BOUND('',#241,.T.);
#276=FACE_BOUND('',#242,.T.);
#277=CYLINDRICAL_SURFACE('',#319,0.00115);
#278=CYLINDRICAL_SURFACE('',#322,0.00115);
#279=CYLINDRICAL_SURFACE('',#325,0.00115);
#280=CYLINDRICAL_SURFACE('',#345,0.003);
#281=CYLINDRICAL_SURFACE('',#346,0.003);
#282=CYLINDRICAL_SURFACE('',#347,0.003);
#283=CYLINDRICAL_SURFACE('',#348,0.003);
#284=CYLINDRICAL_SURFACE('',#349,0.004);
#285=CYLINDRICAL_SURFACE('',#352,0.004);
#286=CYLINDRICAL_SURFACE('',#355,0.004);
#287=ADVANCED_FACE('',(#243,#244),#277,.F.);
#288=ADVANCED_FACE('',(#245,#246),#278,.F.);
#289=ADVANCED_FACE('',(#247,#248),#279,.F.);
#290=ADVANCED_FACE('',(#249),#44,.T.);
#291=ADVANCED_FACE('',(#250),#45,.F.);
#292=ADVANCED_FACE('',(#251),#46,.F.);
#293=ADVANCED_FACE('',(#252),#47,.T.);
#294=ADVANCED_FACE('',(#253,#254,#255,#256),#48,.T.);
#295=ADVANCED_FACE('',(#257,#258,#259,#260),#49,.F.);
#296=ADVANCED_FACE('',(#261),#280,.T.);
#297=ADVANCED_FACE('',(#262),#281,.T.);
#298=ADVANCED_FACE('',(#263),#282,.T.);
#299=ADVANCED_FACE('',(#264),#283,.T.);
#300=ADVANCED_FACE('',(#265,#266),#284,.F.);
#301=ADVANCED_FACE('',(#267,#268),#50,.T.);
#302=ADVANCED_FACE('',(#269,#270),#285,.F.);
#303=ADVANCED_FACE('',(#271,#272),#51,.T.);
#304=ADVANCED_FACE('',(#273,#274),#286,.F.);
#305=ADVANCED_FACE('',(#275,#276),#52,.T.);
#306=CLOSED_SHELL('',(#287,#288,#289,#290,#291,#292,#293,#294,#295,#296,
#297,#298,#299,#300,#301,#302,#303,#304,#305));
#307=STYLED_ITEM('',(#308),#315);
#308=PRESENTATION_STYLE_ASSIGNMENT((#309));
#309=SURFACE_STYLE_USAGE(.BOTH.,#310);
#310=SURFACE_SIDE_STYLE('',(#311));
#311=SURFACE_STYLE_FILL_AREA(#312);
#312=FILL_AREA_STYLE('',(#313));
#313=FILL_AREA_STYLE_COLOUR('',#314);
#314=COLOUR_RGB('',0.231372549019608,0.380392156862745,0.705882352941177);
#315=MANIFOLD_SOLID_BREP('middle',#306);
#316=SHAPE_DEFINITION_REPRESENTATION(#544,#317);
#317=SHAPE_REPRESENTATION('middle',(#318),#539);
#318=AXIS2_PLACEMENT_3D('',#454,#358,#359);
#319=AXIS2_PLACEMENT_3D('',#455,#360,#361);
#320=AXIS2_PLACEMENT_3D('',#456,#362,#363);
#321=AXIS2_PLACEMENT_3D('',#458,#364,#365);
#322=AXIS2_PLACEMENT_3D('',#460,#366,#367);
#323=AXIS2_PLACEMENT_3D('',#461,#368,#369);
#324=AXIS2_PLACEMENT_3D('',#463,#370,#371);
#325=AXIS2_PLACEMENT_3D('',#465,#372,#373);
#326=AXIS2_PLACEMENT_3D('',#466,#374,#375);
#327=AXIS2_PLACEMENT_3D('',#468,#376,#377);
#328=AXIS2_PLACEMENT_3D('',#470,#378,#379);
#329=AXIS2_PLACEMENT_3D('',#479,#384,#385);
#330=AXIS2_PLACEMENT_3D('',#488,#390,#391);
#331=AXIS2_PLACEMENT_3D('',#497,#396,#397);
#332=AXIS2_PLACEMENT_3D('',#506,#402,#403);
#333=AXIS2_PLACEMENT_3D('',#507,#404,#405);
#334=AXIS2_PLACEMENT_3D('',#508,#406,#407);
#335=AXIS2_PLACEMENT_3D('',#509,#408,#409);
#336=AXIS2_PLACEMENT_3D('',#510,#410,#411);
#337=AXIS2_PLACEMENT_3D('',#511,#412,#413);
#338=AXIS2_PLACEMENT_3D('',#512,#414,#415);
#339=AXIS2_PLACEMENT_3D('',#514,#416,#417);
#340=AXIS2_PLACEMENT_3D('',#516,#418,#419);
#341=AXIS2_PLACEMENT_3D('',#518,#420,#421);
#342=AXIS2_PLACEMENT_3D('',#519,#422,#423);
#343=AXIS2_PLACEMENT_3D('',#520,#424,#425);
#344=AXIS2_PLACEMENT_3D('',#521,#426,#427);
#345=AXIS2_PLACEMENT_3D('',#522,#428,#429);
#346=AXIS2_PLACEMENT_3D('',#523,#430,#431);
#347=AXIS2_PLACEMENT_3D('',#524,#432,#433);
#348=AXIS2_PLACEMENT_3D('',#525,#434,#435);
#349=AXIS2_PLACEMENT_3D('',#526,#436,#437);
#350=AXIS2_PLACEMENT_3D('',#527,#438,#439);
#351=AXIS2_PLACEMENT_3D('',#529,#440,#441);
#352=AXIS2_PLACEMENT_3D('',#530,#442,#443);
#353=AXIS2_PLACEMENT_3D('',#531,#444,#445);
#354=AXIS2_PLACEMENT_3D('',#533,#446,#447);
#355=AXIS2_PLACEMENT_3D('',#534,#448,#449);
#356=AXIS2_PLACEMENT_3D('',#535,#450,#451);
#357=AXIS2_PLACEMENT_3D('',#537,#452,#453);
#358=DIRECTION('',(0.,0.,1.));
#359=DIRECTION('',(1.,0.,0.));
#360=DIRECTION('',(0.,0.,-1.));
#361=DIRECTION('',(-1.,0.,0.));
#362=DIRECTION('',(0.,0.,1.));
#363=DIRECTION('',(1.,0.,0.));
#364=DIRECTION('',(0.,0.,-1.));
#365=DIRECTION('',(-1.,0.,0.));
#366=DIRECTION('',(0.,0.,-1.));
#367=DIRECTION('',(-1.,0.,0.));
#368=DIRECTION('',(0.,0.,1.));
#369=DIRECTION('',(1.,0.,0.));
#370=DIRECTION('',(0.,0.,-1.));
#371=DIRECTION('',(-1.,0.,0.));
#372=DIRECTION('',(0.,0.,-1.));
#373=DIRECTION('',(-1.,0.,0.));
#374=DIRECTION('',(0.,0.,1.));
#375=DIRECTION('',(1.,0.,0.));
#376=DIRECTION('',(0.,0.,-1.));
#377=DIRECTION('',(-1.,0.,0.));
#378=DIRECTION('',(0.,1.,0.));
#379=DIRECTION('',(0.,0.,1.));
#380=DIRECTION('',(1.,0.,0.));
#381=DIRECTION('',(0.,0.,-1.));
#382=DIRECTION('',(1.,0.,0.));
#383=DIRECTION('',(0.,0.,-1.));
#384=DIRECTION('',(1.,0.,0.));
#385=DIRECTION('',(0.,0.,-1.));
#386=DIRECTION('',(0.,-1.,0.));
#387=DIRECTION('',(0.,0.,-1.));
#388=DIRECTION('',(0.,-1.,0.));
#389=DIRECTION('',(0.,0.,-1.));
#390=DIRECTION('',(0.,1.,0.));
#391=DIRECTION('',(0.,0.,1.));
#392=DIRECTION('',(1.,0.,0.));
#393=DIRECTION('',(0.,0.,-1.));
#394=DIRECTION('',(1.,0.,0.));
#395=DIRECTION('',(0.,0.,-1.));
#396=DIRECTION('',(1.,0.,0.));
#397=DIRECTION('',(0.,0.,-1.));
#398=DIRECTION('',(0.,-1.,0.));
#399=DIRECTION('',(0.,0.,-1.));
#400=DIRECTION('',(0.,-1.,0.));
#401=DIRECTION('',(0.,0.,-1.));
#402=DIRECTION('',(0.,0.,1.));
#403=DIRECTION('',(1.,0.,0.));
#404=DIRECTION('',(0.,0.,1.));
#405=DIRECTION('',(1.,0.,0.));
#406=DIRECTION('',(0.,0.,1.));
#407=DIRECTION('',(1.,0.,0.));
#408=DIRECTION('',(0.,0.,1.));
#409=DIRECTION('',(1.,0.,0.));
#410=DIRECTION('',(0.,0.,1.));
#411=DIRECTION('',(1.,0.,0.));
#412=DIRECTION('',(0.,0.,1.));
#413=DIRECTION('',(1.,0.,0.));
#414=DIRECTION('',(0.,0.,-1.));
#415=DIRECTION('',(-1.,0.,0.));
#416=DIRECTION('',(0.,0.,-1.));
#417=DIRECTION('',(-1.,0.,0.));
#418=DIRECTION('',(0.,0.,-1.));
#419=DIRECTION('',(-1.,0.,0.));
#420=DIRECTION('',(0.,0.,1.));
#421=DIRECTION('',(1.,0.,0.));
#422=DIRECTION('',(0.,0.,1.));
#423=DIRECTION('',(1.,0.,0.));
#424=DIRECTION('',(0.,0.,1.));
#425=DIRECTION('',(1.,0.,0.));
#426=DIRECTION('',(0.,0.,1.));
#427=DIRECTION('',(1.,0.,0.));
#428=DIRECTION('',(0.,0.,1.));
#429=DIRECTION('',(1.,0.,0.));
#430=DIRECTION('',(0.,0.,-1.));
#431=DIRECTION('',(-1.,0.,0.));
#432=DIRECTION('',(0.,0.,1.));
#433=DIRECTION('',(1.,0.,0.));
#434=DIRECTION('',(0.,0.,-1.));
#435=DIRECTION('',(-1.,0.,0.));
#436=DIRECTION('',(0.,0.,-1.));
#437=DIRECTION('',(-1.,0.,0.));
#438=DIRECTION('',(0.,0.,-1.));
#439=DIRECTION('',(-1.,0.,0.));
#440=DIRECTION('',(0.,0.,-1.));
#441=DIRECTION('',(1.,0.,0.));
#442=DIRECTION('',(0.,0.,-1.));
#443=DIRECTION('',(-1.,0.,0.));
#444=DIRECTION('',(0.,0.,-1.));
#445=DIRECTION('',(-1.,0.,0.));
#446=DIRECTION('',(0.,0.,-1.));
#447=DIRECTION('',(1.,0.,0.));
#448=DIRECTION('',(0.,0.,-1.));
#449=DIRECTION('',(-1.,0.,0.));
#450=DIRECTION('',(0.,0.,-1.));
#451=DIRECTION('',(-1.,0.,0.));
#452=DIRECTION('',(0.,0.,-1.));
#453=DIRECTION('',(1.,0.,0.));
#454=CARTESIAN_POINT('',(0.,0.,0.));
#455=CARTESIAN_POINT('',(-1.69135538907739E-17,0.05,0.01));
#456=CARTESIAN_POINT('',(-1.69135538907739E-17,0.05,0.01));
#457=CARTESIAN_POINT('',(0.00114999999999998,0.05,0.01));
#458=CARTESIAN_POINT('',(-1.69135538907739E-17,0.05,0.004));
#459=CARTESIAN_POINT('',(-0.00115000000000002,0.05,0.004));
#460=CARTESIAN_POINT('',(-0.02,0.05,0.01));
#461=CARTESIAN_POINT('',(-0.02,0.05,0.01));
#462=CARTESIAN_POINT('',(-0.01885,0.05,0.01));
#463=CARTESIAN_POINT('',(-0.02,0.05,0.004));
#464=CARTESIAN_POINT('',(-0.02115,0.05,0.004));
#465=CARTESIAN_POINT('',(0.02,0.05,0.01));
#466=CARTESIAN_POINT('',(0.02,0.05,0.01));
#467=CARTESIAN_POINT('',(0.02115,0.05,0.01));
#468=CARTESIAN_POINT('',(0.02,0.05,0.004));
#469=CARTESIAN_POINT('',(0.01885,0.05,0.004));
#470=CARTESIAN_POINT('',(-1.7347234759768E-17,0.055,0.01));
#471=CARTESIAN_POINT('',(-1.7347234759768E-17,0.055,0.));
#472=CARTESIAN_POINT('',(-0.027,0.055,0.));
#473=CARTESIAN_POINT('',(0.027,0.055,0.));
#474=CARTESIAN_POINT('',(-0.027,0.055,0.01));
#475=CARTESIAN_POINT('',(-0.027,0.055,0.01));
#476=CARTESIAN_POINT('',(-1.7347234759768E-17,0.055,0.01));
#477=CARTESIAN_POINT('',(0.027,0.055,0.01));
#478=CARTESIAN_POINT('',(0.027,0.055,0.01));
#479=CARTESIAN_POINT('',(-0.03,0.05,0.01));
#480=CARTESIAN_POINT('',(-0.03,0.05,0.01));
#481=CARTESIAN_POINT('',(-0.03,0.052,0.01));
#482=CARTESIAN_POINT('',(-0.03,0.048,0.01));
#483=CARTESIAN_POINT('',(-0.03,0.052,0.));
#484=CARTESIAN_POINT('',(-0.03,0.052,0.));
#485=CARTESIAN_POINT('',(-0.03,0.05,0.));
#486=CARTESIAN_POINT('',(-0.03,0.048,0.));
#487=CARTESIAN_POINT('',(-0.03,0.048,0.01));
#488=CARTESIAN_POINT('',(-1.7347234759768E-17,0.045,0.01));
#489=CARTESIAN_POINT('',(-1.7347234759768E-17,0.045,0.01));
#490=CARTESIAN_POINT('',(-0.027,0.045,0.01));
#491=CARTESIAN_POINT('',(0.027,0.045,0.01));
#492=CARTESIAN_POINT('',(-0.027,0.045,0.01));
#493=CARTESIAN_POINT('',(-0.027,0.045,0.));
#494=CARTESIAN_POINT('',(-1.7347234759768E-17,0.045,0.));
#495=CARTESIAN_POINT('',(0.027,0.045,0.));
#496=CARTESIAN_POINT('',(0.027,0.045,0.01));
#497=CARTESIAN_POINT('',(0.03,0.05,0.01));
#498=CARTESIAN_POINT('',(0.03,0.05,0.01));
#499=CARTESIAN_POINT('',(0.03,0.052,0.01));
#500=CARTESIAN_POINT('',(0.03,0.048,0.01));
#501=CARTESIAN_POINT('',(0.03,0.048,0.));
#502=CARTESIAN_POINT('',(0.03,0.048,0.));
#503=CARTESIAN_POINT('',(0.03,0.05,0.));
#504=CARTESIAN_POINT('',(0.03,0.052,0.));
#505=CARTESIAN_POINT('',(0.03,0.052,0.01));
#506=CARTESIAN_POINT('',(-1.38777878078145E-17,0.05,0.01));
#507=CARTESIAN_POINT('',(-0.027,0.052,0.01));
#508=CARTESIAN_POINT('',(-0.027,0.048,0.01));
#509=CARTESIAN_POINT('',(0.027,0.048,0.01));
#510=CARTESIAN_POINT('',(0.027,0.052,0.01));
#511=CARTESIAN_POINT('',(-1.38777878078145E-17,0.05,0.));
#512=CARTESIAN_POINT('',(0.02,0.05,0.));
#513=CARTESIAN_POINT('',(0.016,0.05,0.));
#514=CARTESIAN_POINT('',(-0.02,0.05,0.));
#515=CARTESIAN_POINT('',(-0.024,0.05,0.));
#516=CARTESIAN_POINT('',(-1.7347234759768E-17,0.05,0.));
#517=CARTESIAN_POINT('',(-0.00400000000000002,0.05,0.));
#518=CARTESIAN_POINT('',(-0.027,0.052,0.));
#519=CARTESIAN_POINT('',(0.027,0.052,0.));
#520=CARTESIAN_POINT('',(0.027,0.048,0.));
#521=CARTESIAN_POINT('',(-0.027,0.048,0.));
#522=CARTESIAN_POINT('',(-0.027,0.052,0.01));
#523=CARTESIAN_POINT('',(-0.027,0.048,0.01));
#524=CARTESIAN_POINT('',(0.027,0.048,0.01));
#525=CARTESIAN_POINT('',(0.027,0.052,0.01));
#526=CARTESIAN_POINT('',(-1.7347234759768E-17,0.05,0.004));
#527=CARTESIAN_POINT('',(-1.7347234759768E-17,0.05,0.004));
#528=CARTESIAN_POINT('',(-0.00400000000000002,0.05,0.004));
#529=CARTESIAN_POINT('',(0.0155,-0.005,0.004));
#530=CARTESIAN_POINT('',(-0.02,0.05,0.004));
#531=CARTESIAN_POINT('',(-0.02,0.05,0.004));
#532=CARTESIAN_POINT('',(-0.024,0.05,0.004));
#533=CARTESIAN_POINT('',(0.0155,-0.005,0.004));
#534=CARTESIAN_POINT('',(0.02,0.05,0.004));
#535=CARTESIAN_POINT('',(0.02,0.05,0.004));
#536=CARTESIAN_POINT('',(0.016,0.05,0.004));
#537=CARTESIAN_POINT('',(0.0155,-0.005,0.004));
#538=MECHANICAL_DESIGN_GEOMETRIC_PRESENTATION_REPRESENTATION('',(#307),
#539);
#539=(
GEOMETRIC_REPRESENTATION_CONTEXT(3)
GLOBAL_UNCERTAINTY_ASSIGNED_CONTEXT((#540))
GLOBAL_UNIT_ASSIGNED_CONTEXT((#543,#542,#541))
REPRESENTATION_CONTEXT('middle','TOP_LEVEL_ASSEMBLY_PART')
);
#540=UNCERTAINTY_MEASURE_WITH_UNIT(LENGTH_MEASURE(1.E-8),#543,
'DISTANCE_ACCURACY_VALUE','Maximum Tolerance applied to model');
#541=(
NAMED_UNIT(*)
SI_UNIT($,.STERADIAN.)
SOLID_ANGLE_UNIT()
);
#542=(
NAMED_UNIT(*)
PLANE_ANGLE_UNIT()
SI_UNIT($,.RADIAN.)
);
#543=(
LENGTH_UNIT()
NAMED_UNIT(*)
SI_UNIT($,.METRE.)
);
#544=PRODUCT_DEFINITION_SHAPE('','',#545);
#545=PRODUCT_DEFINITION('','',#547,#546);
#546=PRODUCT_DEFINITION_CONTEXT('',#553,'design');
#547=PRODUCT_DEFINITION_FORMATION_WITH_SPECIFIED_SOURCE('','',#549,
 .NOT_KNOWN.);
#548=PRODUCT_RELATED_PRODUCT_CATEGORY('','',(#549));
#549=PRODUCT('middle','middle','middle',(#551));
#550=PRODUCT_CATEGORY('','');
#551=PRODUCT_CONTEXT('',#553,'mechanical');
#552=APPLICATION_PROTOCOL_DEFINITION('international standard',
'ap242_managed_model_based_3d_engineering',2011,#553);
#553=APPLICATION_CONTEXT('managed model based 3d engineering');
ENDSEC;
END-ISO-10303-21;
